ISO-10303-21;
HEADER;
FILE_DESCRIPTION (( 'STEP AP203' ),
    '1' );
FILE_NAME ('500005_c_1.STEP',
    '2023-05-11T15:28:20',
    ( '' ),
    ( '' ),
    'SwSTEP 2.0',
    'SolidWorks 2014',
    '' );
FILE_SCHEMA (( 'CONFIG_CONTROL_DESIGN' ));
ENDSEC;

DATA;
#1 = DATE_AND_TIME ( #98, #82 ) ;
#2 = PERSON_AND_ORGANIZATION ( #143, #156 ) ;
#3 = ORIENTED_EDGE ( 'NONE', *, *, #88, .T. ) ;
#4 = LINE ( 'NONE', #138, #73 ) ;
#5 = APPROVAL_ROLE ( '' ) ;
#6 = MANIFOLD_SOLID_BREP ( 'NONE', #39 ) ;
#7 = FACE_OUTER_BOUND ( 'NONE', #200, .T. ) ;
#8 = VERTEX_POINT ( 'NONE', #56 ) ;
#9 = CARTESIAN_POINT ( 'NONE',  ( 624.9999999999997700, -1250.000000000000500, 5.000000000000000000 ) ) ;
#10 = PLANE ( 'NONE',  #196 ) ;
#11 = APPROVAL_DATE_TIME ( #70, #32 ) ;
#12 = ORIENTED_EDGE ( 'NONE', *, *, #226, .F. ) ;
#13 = VERTEX_POINT ( 'NONE', #183 ) ;
#14 = PERSON_AND_ORGANIZATION ( #143, #156 ) ;
#15 = ORIENTED_EDGE ( 'NONE', *, *, #104, .T. ) ;
#16 = ORIENTED_EDGE ( 'NONE', *, *, #177, .T. ) ;
#17 = AXIS2_PLACEMENT_3D ( 'NONE', #133, #221, #43 ) ;
#18 = PRODUCT_DEFINITION_FORMATION_WITH_SPECIFIED_SOURCE ( 'ANY', '', #109, .NOT_KNOWN. ) ;
#19 = PERSON_AND_ORGANIZATION ( #143, #156 ) ;
#20 = PERSON_AND_ORGANIZATION_ROLE ( 'creator' ) ;
#21 = APPLICATION_CONTEXT ( 'configuration controlled 3d designs of mechanical parts and assemblies' ) ;
#22 = APPROVAL_STATUS ( 'not_yet_approved' ) ;
#23 = PRODUCT_DEFINITION ( 'UNKNOWN', '', #18, #230 ) ;
#24 = CARTESIAN_POINT ( 'NONE',  ( -625.0000000000002300, -1250.000000000000500, 5.000000000000000000 ) ) ;
#25 = PLANE ( 'NONE',  #164 ) ;
#26 = APPROVAL_DATE_TIME ( #224, #222 ) ;
#27 = CARTESIAN_POINT ( 'NONE',  ( 0.0000000000000000000, 0.0000000000000000000, 5.000000000000000000 ) ) ;
#28 = ADVANCED_FACE ( 'NONE', ( #151 ), #25, .T. ) ;
#29 = EDGE_CURVE ( 'NONE', #13, #193, #50, .T. ) ;
#30 = LOCAL_TIME ( 8, 28, 20.00000000000000000, #53 ) ;
#31 = ORIENTED_EDGE ( 'NONE', *, *, #29, .F. ) ;
#32 = APPROVAL ( #75, 'UNSPECIFIED' ) ;
#33 = COORDINATED_UNIVERSAL_TIME_OFFSET ( 8, 0, .BEHIND. ) ;
#34 = FACE_OUTER_BOUND ( 'NONE', #85, .T. ) ;
#35 = VERTEX_POINT ( 'NONE', #71 ) ;
#36 = ORIENTED_EDGE ( 'NONE', *, *, #51, .T. ) ;
#37 = PRODUCT_RELATED_PRODUCT_CATEGORY ( 'detail', '', ( #109 ) ) ;
#38 = LOCAL_TIME ( 8, 28, 20.00000000000000000, #89 ) ;
#39 = CLOSED_SHELL ( 'NONE', ( #132, #172, #113, #235, #202, #28 ) ) ;
#40 = DATE_TIME_ROLE ( 'classification_date' ) ;
#41 =( LENGTH_UNIT ( ) NAMED_UNIT ( * ) SI_UNIT ( .MILLI., .METRE. ) );
#42 = CARTESIAN_POINT ( 'NONE',  ( 0.0000000000000000000, 0.0000000000000000000, 0.0000000000000000000 ) ) ;
#43 = DIRECTION ( 'NONE',  ( 0.0000000000000000000, 0.0000000000000000000, -1.000000000000000000 ) ) ;
#44 = PERSON_AND_ORGANIZATION ( #143, #156 ) ;
#45 = EDGE_CURVE ( 'NONE', #216, #209, #175, .T. ) ;
#46 = ORIENTED_EDGE ( 'NONE', *, *, #153, .F. ) ;
#47 = CARTESIAN_POINT ( 'NONE',  ( -625.0000000000002300, 1249.999999999999500, 0.0000000000000000000 ) ) ;
#48 = DIRECTION ( 'NONE',  ( 0.0000000000000000000, 1.000000000000000000, 0.0000000000000000000 ) ) ;
#49 = PERSON_AND_ORGANIZATION ( #143, #156 ) ;
#50 = LINE ( 'NONE', #219, #94 ) ;
#51 = EDGE_CURVE ( 'NONE', #193, #35, #101, .T. ) ;
#52 = FACE_OUTER_BOUND ( 'NONE', #103, .T. ) ;
#53 = COORDINATED_UNIVERSAL_TIME_OFFSET ( 8, 0, .BEHIND. ) ;
#54 = ORIENTED_EDGE ( 'NONE', *, *, #62, .T. ) ;
#55 = PLANE ( 'NONE',  #17 ) ;
#56 = CARTESIAN_POINT ( 'NONE',  ( -625.0000000000002300, 1249.999999999999500, 0.0000000000000000000 ) ) ;
#57 = CARTESIAN_POINT ( 'NONE',  ( 624.9999999999997700, -1250.000000000000500, 0.0000000000000000000 ) ) ;
#58 = PERSON_AND_ORGANIZATION_ROLE ( 'classification_officer' ) ;
#59 =( NAMED_UNIT ( * ) PLANE_ANGLE_UNIT ( ) SI_UNIT ( $, .RADIAN. ) );
#60 = VECTOR ( 'NONE', #100, 1000.000000000000000 ) ;
#61 = CARTESIAN_POINT ( 'NONE',  ( -625.0000000000002300, 1249.999999999999500, 5.000000000000000000 ) ) ;
#62 = EDGE_CURVE ( 'NONE', #35, #179, #78, .T. ) ;
#63 = DIRECTION ( 'NONE',  ( 0.0000000000000000000, 0.0000000000000000000, -1.000000000000000000 ) ) ;
#64 = VECTOR ( 'NONE', #65, 1000.000000000000000 ) ;
#65 = DIRECTION ( 'NONE',  ( 1.000000000000000000, 0.0000000000000000000, 0.0000000000000000000 ) ) ;
#66 = DIRECTION ( 'NONE',  ( 0.0000000000000000000, -1.000000000000000000, 0.0000000000000000000 ) ) ;
#67 = SHAPE_DEFINITION_REPRESENTATION ( #126, #233 ) ;
#68 = VECTOR ( 'NONE', #92, 1000.000000000000000 ) ;
#69 = CC_DESIGN_PERSON_AND_ORGANIZATION_ASSIGNMENT ( #165, #112, ( #18 ) ) ;
#70 = DATE_AND_TIME ( #123, #30 ) ;
#71 = CARTESIAN_POINT ( 'NONE',  ( -625.0000000000002300, -1250.000000000000500, 5.000000000000000000 ) ) ;
#72 = CALENDAR_DATE ( 2023, 11, 5 ) ;
#73 = VECTOR ( 'NONE', #48, 1000.000000000000000 ) ;
#74 = ORIENTED_EDGE ( 'NONE', *, *, #104, .F. ) ;
#75 = APPROVAL_STATUS ( 'not_yet_approved' ) ;
#76 = ORIENTED_EDGE ( 'NONE', *, *, #88, .F. ) ;
#77 = DIRECTION ( 'NONE',  ( 1.000000000000000000, 0.0000000000000000000, 0.0000000000000000000 ) ) ;
#78 = LINE ( 'NONE', #148, #191 ) ;
#79 = CC_DESIGN_DATE_AND_TIME_ASSIGNMENT ( #1, #220, ( #23 ) ) ;
#80 = CALENDAR_DATE ( 2023, 11, 5 ) ;
#81 = DIRECTION ( 'NONE',  ( 0.0000000000000000000, -0.0000000000000000000, -1.000000000000000000 ) ) ;
#82 = LOCAL_TIME ( 8, 28, 20.00000000000000000, #33 ) ;
#83 = CC_DESIGN_PERSON_AND_ORGANIZATION_ASSIGNMENT ( #49, #20, ( #18 ) ) ;
#84 = ORIENTED_EDGE ( 'NONE', *, *, #29, .T. ) ;
#85 = EDGE_LOOP ( 'NONE', ( #128, #218, #99, #74 ) ) ;
#86 = CARTESIAN_POINT ( 'NONE',  ( -625.0000000000002300, -1250.000000000000500, 0.0000000000000000000 ) ) ;
#87 = DATE_AND_TIME ( #72, #213 ) ;
#88 = EDGE_CURVE ( 'NONE', #208, #13, #157, .T. ) ;
#89 = COORDINATED_UNIVERSAL_TIME_OFFSET ( 8, 0, .BEHIND. ) ;
#90 = VECTOR ( 'NONE', #116, 1000.000000000000000 ) ;
#91 = ORIENTED_EDGE ( 'NONE', *, *, #45, .F. ) ;
#92 = DIRECTION ( 'NONE',  ( -0.0000000000000000000, -0.0000000000000000000, -1.000000000000000000 ) ) ;
#93 = APPROVAL_ROLE ( '' ) ;
#94 = VECTOR ( 'NONE', #197, 1000.000000000000000 ) ;
#95 = DIRECTION ( 'NONE',  ( 0.0000000000000000000, -0.0000000000000000000, 1.000000000000000000 ) ) ;
#96 = CC_DESIGN_APPROVAL ( #159, ( #18 ) ) ;
#97 = CARTESIAN_POINT ( 'NONE',  ( 624.9999999999997700, 1249.999999999999500, 0.0000000000000000000 ) ) ;
#98 = CALENDAR_DATE ( 2023, 11, 5 ) ;
#99 = ORIENTED_EDGE ( 'NONE', *, *, #107, .T. ) ;
#100 = DIRECTION ( 'NONE',  ( -1.000000000000000000, -0.0000000000000000000, 0.0000000000000000000 ) ) ;
#101 = LINE ( 'NONE', #121, #90 ) ;
#102 = CC_DESIGN_PERSON_AND_ORGANIZATION_ASSIGNMENT ( #237, #58, ( #171 ) ) ;
#103 = EDGE_LOOP ( 'NONE', ( #142, #3, #16, #106 ) ) ;
#104 = EDGE_CURVE ( 'NONE', #179, #8, #105, .T. ) ;
#105 = LINE ( 'NONE', #117, #182 ) ;
#106 = ORIENTED_EDGE ( 'NONE', *, *, #129, .F. ) ;
#107 = EDGE_CURVE ( 'NONE', #208, #8, #231, .T. ) ;
#108 = FACE_OUTER_BOUND ( 'NONE', #232, .T. ) ;
#109 = PRODUCT ( '500005_c_1', '500005_c_1', '', ( #228 ) ) ;
#110 = LINE ( 'NONE', #47, #64 ) ;
#111 = CARTESIAN_POINT ( 'NONE',  ( 624.9999999999997700, 1249.999999999999500, 5.000000000000000000 ) ) ;
#112 = PERSON_AND_ORGANIZATION_ROLE ( 'design_supplier' ) ;
#113 = ADVANCED_FACE ( 'NONE', ( #52 ), #122, .F. ) ;
#114 = AXIS2_PLACEMENT_3D ( 'NONE', #27, #155, #188 ) ;
#115 = DIRECTION ( 'NONE',  ( 0.0000000000000000000, 0.0000000000000000000, 1.000000000000000000 ) ) ;
#116 = DIRECTION ( 'NONE',  ( -1.000000000000000000, 0.0000000000000000000, -0.0000000000000000000 ) ) ;
#117 = CARTESIAN_POINT ( 'NONE',  ( -625.0000000000002300, -1250.000000000000500, 0.0000000000000000000 ) ) ;
#118 = EDGE_CURVE ( 'NONE', #35, #208, #4, .T. ) ;
#119 = UNCERTAINTY_MEASURE_WITH_UNIT (LENGTH_MEASURE( 1.000000000000000100E-005 ), #41, 'distance_accuracy_value', 'NONE');
#120 = APPROVAL_PERSON_ORGANIZATION ( #127, #32, #93 ) ;
#121 = CARTESIAN_POINT ( 'NONE',  ( 0.0000000000000000000, -1250.000000000000500, 5.000000000000000000 ) ) ;
#122 = PLANE ( 'NONE',  #125 ) ;
#123 = CALENDAR_DATE ( 2023, 11, 5 ) ;
#124 = PLANE ( 'NONE',  #114 ) ;
#125 = AXIS2_PLACEMENT_3D ( 'NONE', #236, #66, #81 ) ;
#126 = PRODUCT_DEFINITION_SHAPE ( 'NONE', 'NONE',  #23 ) ;
#127 = PERSON_AND_ORGANIZATION ( #143, #156 ) ;
#128 = ORIENTED_EDGE ( 'NONE', *, *, #62, .F. ) ;
#129 = EDGE_CURVE ( 'NONE', #8, #216, #110, .T. ) ;
#130 = LINE ( 'NONE', #111, #68 ) ;
#131 = APPROVAL_ROLE ( '' ) ;
#132 = ADVANCED_FACE ( 'NONE', ( #7 ), #124, .F. ) ;
#133 = CARTESIAN_POINT ( 'NONE',  ( -625.0000000000002300, -1250.000000000000500, 5.000000000000000000 ) ) ;
#134 = COORDINATED_UNIVERSAL_TIME_OFFSET ( 8, 0, .BEHIND. ) ;
#135 = APPLICATION_PROTOCOL_DEFINITION ( 'international standard', 'config_control_design', 1994, #21 ) ;
#136 = VECTOR ( 'NONE', #206, 1000.000000000000000 ) ;
#137 =( GEOMETRIC_REPRESENTATION_CONTEXT ( 3 ) GLOBAL_UNCERTAINTY_ASSIGNED_CONTEXT ( ( #119 ) ) GLOBAL_UNIT_ASSIGNED_CONTEXT ( ( #41, #59, #205 ) ) REPRESENTATION_CONTEXT ( 'NONE', 'WORKASPACE' ) );
#138 = CARTESIAN_POINT ( 'NONE',  ( -625.0000000000002300, 0.0000000000000000000, 5.000000000000000000 ) ) ;
#139 = CC_DESIGN_APPROVAL ( #222, ( #23 ) ) ;
#140 = APPROVAL_PERSON_ORGANIZATION ( #2, #222, #5 ) ;
#141 = LINE ( 'NONE', #223, #189 ) ;
#142 = ORIENTED_EDGE ( 'NONE', *, *, #107, .F. ) ;
#143 = PERSON ( 'UNSPECIFIED', 'UNSPECIFIED', 'UNSPECIFIED', ('UNSPECIFIED'), ('UNSPECIFIED'), ('UNSPECIFIED') ) ;
#144 = VECTOR ( 'NONE', #234, 1000.000000000000000 ) ;
#145 = PERSON_AND_ORGANIZATION_ROLE ( 'creator' ) ;
#146 = SECURITY_CLASSIFICATION_LEVEL ( 'unclassified' ) ;
#147 = ORIENTED_EDGE ( 'NONE', *, *, #153, .T. ) ;
#148 = CARTESIAN_POINT ( 'NONE',  ( -625.0000000000002300, -1250.000000000000500, 5.000000000000000000 ) ) ;
#149 = PERSON_AND_ORGANIZATION_ROLE ( 'design_owner' ) ;
#150 = DIRECTION ( 'NONE',  ( 0.0000000000000000000, 1.000000000000000000, 0.0000000000000000000 ) ) ;
#151 = FACE_OUTER_BOUND ( 'NONE', #195, .T. ) ;
#152 = CARTESIAN_POINT ( 'NONE',  ( 0.0000000000000000000, 1249.999999999999500, 5.000000000000000000 ) ) ;
#153 = EDGE_CURVE ( 'NONE', #209, #179, #199, .T. ) ;
#154 = DIRECTION ( 'NONE',  ( -1.000000000000000000, 0.0000000000000000000, -0.0000000000000000000 ) ) ;
#155 = DIRECTION ( 'NONE',  ( 0.0000000000000000000, 0.0000000000000000000, -1.000000000000000000 ) ) ;
#156 = ORGANIZATION ( 'UNSPECIFIED', 'UNSPECIFIED', '' ) ;
#157 = LINE ( 'NONE', #152, #136 ) ;
#158 = ORIENTED_EDGE ( 'NONE', *, *, #45, .T. ) ;
#159 = APPROVAL ( #168, 'UNSPECIFIED' ) ;
#160 = AXIS2_PLACEMENT_3D ( 'NONE', #42, #180, #77 ) ;
#161 = DATE_AND_TIME ( #173, #217 ) ;
#162 = VECTOR ( 'NONE', #214, 1000.000000000000000 ) ;
#163 = CC_DESIGN_SECURITY_CLASSIFICATION ( #171, ( #18 ) ) ;
#164 = AXIS2_PLACEMENT_3D ( 'NONE', #187, #229, #154 ) ;
#165 = PERSON_AND_ORGANIZATION ( #143, #156 ) ;
#166 = DIRECTION ( 'NONE',  ( -1.000000000000000000, 0.0000000000000000000, 0.0000000000000000000 ) ) ;
#167 = DIRECTION ( 'NONE',  ( 0.0000000000000000000, 0.0000000000000000000, 1.000000000000000000 ) ) ;
#168 = APPROVAL_STATUS ( 'not_yet_approved' ) ;
#169 = APPROVAL_DATE_TIME ( #87, #159 ) ;
#170 = ORIENTED_EDGE ( 'NONE', *, *, #177, .F. ) ;
#171 = SECURITY_CLASSIFICATION ( '', '', #146 ) ;
#172 = ADVANCED_FACE ( 'NONE', ( #185 ), #198, .F. ) ;
#173 = CALENDAR_DATE ( 2023, 11, 5 ) ;
#174 = ORIENTED_EDGE ( 'NONE', *, *, #129, .T. ) ;
#175 = LINE ( 'NONE', #203, #144 ) ;
#176 = CC_DESIGN_PERSON_AND_ORGANIZATION_ASSIGNMENT ( #44, #145, ( #23 ) ) ;
#177 = EDGE_CURVE ( 'NONE', #13, #216, #130, .T. ) ;
#178 = APPROVAL_PERSON_ORGANIZATION ( #14, #159, #131 ) ;
#179 = VERTEX_POINT ( 'NONE', #86 ) ;
#180 = DIRECTION ( 'NONE',  ( 0.0000000000000000000, 0.0000000000000000000, 1.000000000000000000 ) ) ;
#181 = APPLICATION_PROTOCOL_DEFINITION ( 'international standard', 'config_control_design', 1994, #227 ) ;
#182 = VECTOR ( 'NONE', #150, 1000.000000000000000 ) ;
#183 = CARTESIAN_POINT ( 'NONE',  ( 624.9999999999997700, 1249.999999999999500, 5.000000000000000000 ) ) ;
#184 = CARTESIAN_POINT ( 'NONE',  ( 624.9999999999997700, -1250.000000000000500, 5.000000000000000000 ) ) ;
#185 = FACE_OUTER_BOUND ( 'NONE', #192, .T. ) ;
#186 = AXIS2_PLACEMENT_3D ( 'NONE', #184, #166, #115 ) ;
#187 = CARTESIAN_POINT ( 'NONE',  ( 0.0000000000000000000, 0.0000000000000000000, 0.0000000000000000000 ) ) ;
#188 = DIRECTION ( 'NONE',  ( -1.000000000000000000, 0.0000000000000000000, -0.0000000000000000000 ) ) ;
#189 = VECTOR ( 'NONE', #167, 1000.000000000000000 ) ;
#190 = ORIENTED_EDGE ( 'NONE', *, *, #118, .F. ) ;
#191 = VECTOR ( 'NONE', #63, 1000.000000000000000 ) ;
#192 = EDGE_LOOP ( 'NONE', ( #170, #84, #12, #91 ) ) ;
#193 = VERTEX_POINT ( 'NONE', #9 ) ;
#194 = COORDINATED_UNIVERSAL_TIME_OFFSET ( 8, 0, .BEHIND. ) ;
#195 = EDGE_LOOP ( 'NONE', ( #15, #174, #158, #147 ) ) ;
#196 = AXIS2_PLACEMENT_3D ( 'NONE', #24, #204, #95 ) ;
#197 = DIRECTION ( 'NONE',  ( -0.0000000000000000000, -1.000000000000000000, -0.0000000000000000000 ) ) ;
#198 = PLANE ( 'NONE',  #186 ) ;
#199 = LINE ( 'NONE', #210, #60 ) ;
#200 = EDGE_LOOP ( 'NONE', ( #76, #190, #207, #31 ) ) ;
#201 = CARTESIAN_POINT ( 'NONE',  ( -625.0000000000002300, 1249.999999999999500, 5.000000000000000000 ) ) ;
#202 = ADVANCED_FACE ( 'NONE', ( #108 ), #10, .F. ) ;
#203 = CARTESIAN_POINT ( 'NONE',  ( 624.9999999999997700, -1250.000000000000500, 0.0000000000000000000 ) ) ;
#204 = DIRECTION ( 'NONE',  ( 0.0000000000000000000, 1.000000000000000000, 0.0000000000000000000 ) ) ;
#205 =( NAMED_UNIT ( * ) SI_UNIT ( $, .STERADIAN. ) SOLID_ANGLE_UNIT ( ) );
#206 = DIRECTION ( 'NONE',  ( 1.000000000000000000, -0.0000000000000000000, 0.0000000000000000000 ) ) ;
#207 = ORIENTED_EDGE ( 'NONE', *, *, #51, .F. ) ;
#208 = VERTEX_POINT ( 'NONE', #201 ) ;
#209 = VERTEX_POINT ( 'NONE', #57 ) ;
#210 = CARTESIAN_POINT ( 'NONE',  ( -625.0000000000002300, -1250.000000000000500, 0.0000000000000000000 ) ) ;
#211 = CC_DESIGN_APPROVAL ( #32, ( #171 ) ) ;
#212 = CC_DESIGN_PERSON_AND_ORGANIZATION_ASSIGNMENT ( #19, #149, ( #109 ) ) ;
#213 = LOCAL_TIME ( 8, 28, 20.00000000000000000, #194 ) ;
#214 = DIRECTION ( 'NONE',  ( 0.0000000000000000000, -0.0000000000000000000, -1.000000000000000000 ) ) ;
#215 = CC_DESIGN_DATE_AND_TIME_ASSIGNMENT ( #161, #40, ( #171 ) ) ;
#216 = VERTEX_POINT ( 'NONE', #97 ) ;
#217 = LOCAL_TIME ( 8, 28, 20.00000000000000000, #134 ) ;
#218 = ORIENTED_EDGE ( 'NONE', *, *, #118, .T. ) ;
#219 = CARTESIAN_POINT ( 'NONE',  ( 624.9999999999997700, 0.0000000000000000000, 5.000000000000000000 ) ) ;
#220 = DATE_TIME_ROLE ( 'creation_date' ) ;
#221 = DIRECTION ( 'NONE',  ( 1.000000000000000000, -0.0000000000000000000, 0.0000000000000000000 ) ) ;
#222 = APPROVAL ( #22, 'UNSPECIFIED' ) ;
#223 = CARTESIAN_POINT ( 'NONE',  ( 624.9999999999997700, -1250.000000000000500, 5.000000000000000000 ) ) ;
#224 = DATE_AND_TIME ( #80, #38 ) ;
#225 = ORIENTED_EDGE ( 'NONE', *, *, #226, .T. ) ;
#226 = EDGE_CURVE ( 'NONE', #209, #193, #141, .T. ) ;
#227 = APPLICATION_CONTEXT ( 'configuration controlled 3d designs of mechanical parts and assemblies' ) ;
#228 = MECHANICAL_CONTEXT ( 'NONE', #227, 'mechanical' ) ;
#229 = DIRECTION ( 'NONE',  ( 0.0000000000000000000, 0.0000000000000000000, -1.000000000000000000 ) ) ;
#230 = DESIGN_CONTEXT ( 'detailed design', #21, 'design' ) ;
#231 = LINE ( 'NONE', #61, #162 ) ;
#232 = EDGE_LOOP ( 'NONE', ( #225, #36, #54, #46 ) ) ;
#233 = ADVANCED_BREP_SHAPE_REPRESENTATION ( '500005_c_1', ( #6, #160 ), #137 ) ;
#234 = DIRECTION ( 'NONE',  ( -0.0000000000000000000, -1.000000000000000000, 0.0000000000000000000 ) ) ;
#235 = ADVANCED_FACE ( 'NONE', ( #34 ), #55, .F. ) ;
#236 = CARTESIAN_POINT ( 'NONE',  ( -625.0000000000002300, 1249.999999999999500, 5.000000000000000000 ) ) ;
#237 = PERSON_AND_ORGANIZATION ( #143, #156 ) ;
ENDSEC;
END-ISO-10303-21;
